Welcome to the Popa Guitar's Tabs Forum

Submit or request a Popa Chubby's tab
 
Accès au siteAccès au site  AccueilAccueil  PortailPortail  FAQFAQ  RechercherRechercher  S'enregistrerS'enregistrer  MembresMembres  GroupesGroupes  Connexion  

Partagez | 
 

 Race With The Devil

Voir le sujet précédent Voir le sujet suivant Aller en bas 
AuteurMessage
Healer
Admin


Masculin Nombre de messages : 453
Age : 42
Localisation : Brussels City
Date d'inscription : 24/06/2006

MessageSujet: Race With The Devil   Mer 22 Oct - 22:30

Nouvel album, nouvelle tab...on commence par un ptit rockab' version Popa: http://profile.myspace.com/index.cfm?fuseaction=user.viewProfile&friendID=44936837

Bon amusement Wink

Race With The Devil
(Popa Chubby – « Vicious Country »)


Code:
|------------------------------------------------------------|
|------------------------------------------------------------|
|-------—----------------------------------------------------|
|------------------------------------------------------------|
|----------------------2-4—-4/5--5-4--4-2--2-----------------|
|--15/--0--0-3/4--4-2------------------------3B—-3B-0--------|

|-------------------------------------------5—-4--2---5--4---|
|-------------------------------------------2—-2--2---2--2---|
|-------—--------------------------------2--—----------------|
|----------------------------------------2-------------------|
|--------------2-4—-4/5--5-4--4-2--2-----0-------------------|
|--0-3/4--4-2-----—------------------3B----------------------|

|--2-------------12-10--9---12-10—-9/------------------------|
|--2---0-0---9----9--9--9----9--9—-9/--X---------------------|
|--2---0-0-—-9--------------------—----X---------------------|
|------------9-------------------------X---------------------|
|-----------------------------------------0-1/2-2-1-2-3-3----|
|--------------—---------------------------------------------|

|------------------------------------------------------------|
|------------------------------------------------------------|
|-------—----------------------------------------------------|
|------------------------------------------------------------|
|--2-3-4-4-3-4-5-5-6-6-7-7-7-7-7-7-7-7-7-7-7-7-7-/-----------|
|--------------—---------------------------------------------|

|--15b--15b-15b-15b-/--15b—-15b-15b-15b-/--15b--12-15p12-----|
|--14b--14b-14b—14b-/--14b--14b-14b-14b-/--14b---------------|
|-------—----------------------------------------------------|
|------------------------------------------------------------|
|------------------------------------------------------------|
|--------------—---------------------------------------------|

|-------12---------------------------------------------------|
|--15/14--15-12-12------------------12-14-12-15-12-14-12-14--|
|-------—----------14B14p12-14-12/13-------------------------|
|------------------------------------------------------------|
|------------------------------------------------------------|
|--------------—---------------------------------------------|

|----------------------12/--0-------7---5---4---2---0--------|
|---------------------------0--------------------------0-----|
|---(14B)14-12-14—12/13---------5/8—-8/6-6/4-4/2-0h1---1-----|
|------------------------------------------------------2-----|
|------------------------------------------------------2-----|
|------------—-----------------------------------------0-----|

|----------0-------------------------------------------------|
|--2-2-0-2-0-Let---------------------------------------------|
|--2-2-1-2-1-Ring—-------------------------------------------|
|--2-2-2-2-2-------------------------------------------------|
|------2---2-------------------------------------------------|
|----------0----—--------------------------------------------|


Verse : ex.1


|------------------------------5-4-2---5-4-2-----------------|
|--0-----0-----0---------------2-2-2---2-2-2—-(0)-0-2-0-2----|
|--1-----1--—--1-------------------------------0--1-2-1-2----|
|--2-----2-----2-------------------------------0--2-2-2-2----|
|--2-----2-----2------------0--------------------------------|
|--0-----0-----0----0-2-3—4----------------------------------|
                  |  PM  |
|--------0-----------------2-------------------------------0-|
|--0--X--0-Let-------------0-----------------0-2-0-2-0-2-0-0-|
|--1--X--1-Ring—---------2-------------------1-2-1-2-1-2-1---|
|--2--X--2--------------1--------------------2-2-2-2-2-2-2---|
|--------2-------0-1-0-2-----2-2-1-0-0-------2---2---2---2---|
|--------------—-----------------------3B-0------------------|


Verse : ex.2


|------------------------------------------------------------|
|--0-----0-----0---------------------—-----------------------|
|--1-----1--—--1---------------------------------------------|
|--2-----2-----2------------2---2-4-2-4/5-5-5/4-4-4/2--------|
|--2-----2-----2------------0-0------------------------------|
|--0-----0-----0----0-2-3—4---------------------------0-3B-4-|
                  |  PM  |
|------------------------------------------------------------|
|------------------------------------------------------------|
|-------—------------------------------2---2-----------------|
|-----------------------------------1--1---1-----------------|
|----------2-2-4-4/5-5-4-4-2--0-1-2-2-2--2---2-2-1-1-0-0-----|
|--0--0-3B---------—-------------------------------------3B--|

|--0---------------0-----------------------------------------|
|--0-------0-2-0-2-0-----------------------------------------|
|--1-Let---1-2—1-2-1-----------------------------------------|
|--2-Ring--2-2-2-2-2-----------------------------------------|
|--2-------2---2---2-----------------------------------------|
|--0------------—--------------------------------------------|


Solo :


|--3p2p0------3p2p0-----3p2p0-----3p2p0-----3p2p0-----3p2p0--|
|--------3p2p0-----3p2p0-----3p2p0-----3p2p0-----3p2p0-------|
|-------—----------------------------------------------------|
|------------------------------------------------------------|
|------------------------------------------------------------|
|--------------—---------------------------------------------|

|--3p2p0-----3p2p0-------------------------------------------|
|-------3p2p0-----3p2p0--3p2p0-----3p2p0-----3p2p0-----------|
|-------—---------------------3p2p0-----3p2p0-----3p2p0------|
|------------------------------------------------------------|
|------------------------------------------------------------|
|--------------—---------------------------------------------|

|----------0---------------------------0---7---5---4---2---0-|
|-----------------3-----3-----3-----3-(3)--------------------|
|--2B2p0-----—2/4—--2/4---2/4---2/4---------8/6—6/4-4/2-0h1--|
|--------2---------------------------------------------------|
|------------------------------------------------------------|
|--------------—---------------------------------------------|

|-----------------0-0-0-0--/12-12-12-12-12-12-12-12-12-12-12-|
|--2-0-Let--2-2-0-0-0-0-0------------------------------------|
|--2-1-Ring-2-2-1—1-1-1-1------------------------------------|
|--2-2------2-2-2--------------------------------------------|
|----2----------2--------------------------------------------|
|--------------—---------------------------------------------|

|--12-12-12-12-12-15-12-15-12--12------(12)------------------|
|----------------------------15--15-12--12-------------------|
|-------—-----------------------------14---15/14p12-14-12/13-|
|------------------------------------------------------------|
|------------------------------------------------------------|
|--------------—---------------------------------------------|

|--12---15--15-/-15B-12-14p12----12---12---------------------|
|--12--(14)(14)/-14B----------/15—-15B--15-12---12-----------|
|-------—-------------------------------------14—-14FB14p12--|
|------------------------------------------------------------|
|------------------------------------------------------------|
|--------------—---------------------------------------------|

|-------------12/-----7---9----11---9-------0-3B-0----0-5-0--|
|----14-------------------------------0-----0-----0-3--------|
|----14—-12/13-—---5/8-8/9-9/11—11/9--0-4p0------------------|
|--14--------------------------------------------------------|
|------------------------------------------------------------|
|--------------—---------------------------------------------|

|-----------0---------12---12--------------------------------|
|--------------X-X-X--12--(12)--------------------------11-9-|
|--4-2/1-0h1---X—X-X—-11FB----11FB-9-12-9--9------------11-9-|
|--------------X-X-X---------------------11-11B-9—-9-11B-----|
|------------------------------------------------11----------|
|--------------—---------------------------------------------|

|------------------------------------------------------------|
|-------9-9-11-9---------------------------------------------|
|--11FB---9-11—--12/11p9-11-12/11p9-11-12/11p9-11------------|
|-------------------------------------------------11/14-14---|
|------------------------------------------------------------|
|--------------—---------------------------------------------|

|------------------------------------------------------------|
|--12---14---12---12-----15-----15-----15-----15-----15------|
|--12-14--14-12h13—-13/16—-14/16—-14/16—-14/16--14/16—-16/14-|
|------------------------------------------------------------|
|------------------------------------------------------------|
|--------------—---------------------------------------------|

|------------------------------------------------------------|
|--14------12-----10----9/-0--2-0-2-0-2-0--------------------|
|-----14/13—-13/11—-11/9---1--2-1-2-1-2-1--------------------|
|-------------------------(2)-2-2-2-2-2-2------------------2/|
|---------------------------------------2------------2-2-4---|
|--------------—---------------------------0-0-3/4-4---------|

|--12/----------------------------12/------------------------|
|--12/--X-X-----------------------12/--X-X-------------------|
|-------X—X----------------------------X-X-------------------|
|-------X-X-----------------2-0--------X-X-----------2--4--5/|
|---------------------2-2-4----0-----------0-0-3/4-4---------|
|-----------0-0-3/4—4----------------------------------------|

|-------12/-----------------------------12/------------------|
|--0-0--12/--X-X------------------------12/--X-X-------------|
|--0-0----—--X-X-----------------------------X-X-------------|
|--0-0-------X-X-------------------2-0-------X-X-------------|
|--------------------------2-(2)-4----0----------/2-2-1-2-3--|
|--------------—-0-0-3/4-4-----------------------------------|

|------------------------------------------------------------|
|-------------------------------------------------------X-X--|
|-------—-----------------------------------------------X-X--|
|-------------------------------------------------------X-X--|
|--3-2-3-4-4-3-4-5-5-5-5-5-/-7--7-7--7-7--7-7--7-7--7-7------|
|--------------—---------------------------------------------|

|--12-12-12-12--0-0-0-0--12-12-12-12--0-0-0-0—-15b-15—15b~~--|
|----------------------------------------------14b----14b~~--|
|-------—----------------------------------------------------|
|------------------------------------------------------------|
|------------------------------------------------------------|
|--------------—---------------------------------------------|

|------------------------------------------------------------|
|--X-X—15FB—-15FB~~15-12-15p12--12---------------------------|
|--X-X----—-------------------14—14FB14p12--14--14--12-------|
|--X-X------------------------------------14--14--14--14-12--|
|------------------------------------------------------------|
|--------------—---------------------------------------------|

|------------------------------------------------------------|
|-----------------12-----------------------------------15-12-|
|-------—-14-12/13--14-15h16-14-15h16-14-15h16-14-15h16------|
|----12-14---------------------------------------------------|
|--14--------------------------------------------------------|
|--------------—---------------------------------------------|

|----------------------------12--12-14-12-12-12-14-12-/------|
|--------------------------------12-14-12-13-12-14-12-/------|
|--14-14FB-14FB14p12-14-12/13-—--12-14-12h13-12-14-13-/------|
|------------------------------------------------------------|
|------------------------------------------------------------|
|--------------—---------------------------------------------|


Dernière édition par Healer le Mer 22 Oct - 22:32, édité 1 fois
Revenir en haut Aller en bas
Voir le profil de l'utilisateur http://www.brusselscityblues.fr.tc
Healer
Admin


Masculin Nombre de messages : 453
Age : 42
Localisation : Brussels City
Date d'inscription : 24/06/2006

MessageSujet: Re: Race With The Devil   Mer 22 Oct - 22:31

Code:

Solo 2 :


|------------------------------------------------------------|
|------------------------------------------------------------|
|-------—----------------------------------------------------|
|--------------------------------------------------2------2--|
|--2--2--2--2--2--2--2--2--2--2--2--2--2--2--2--2--0---/4----|
|--0--3B-0—-3B-0—-3B-0—-3B-0—-3B-0—-3B-0—-3B-0—-3B-----------|


|-----------0----0----0----0----0----0----0----11/12-12-12---|
|------------------------------------------------------------|
|----2---3/4—-3/4—-3/4-—3/4—-3/4—-3/4—-3/4—-3/4--------------|
|--4---------------------------------------------------------|
|------------------------------------------------------------|
|--------------—---------------------------------------------|

|--12-12-11/12-12-12-11/12-12-12-12-11/12-12-12-12--0-15b~~--|
|---------------------------------------------------0-14b~~--|
|-------—----------------------------------------------------|
|------------------------------------------------------------|
|------------------------------------------------------------|
|--------------—---------------------------------------------|

|--15b-15b~~-15b--12-(12)-12---------------------------------|
|--14b-14b~~-14b------15------15-12-15-15-12--12-------------|
|-------—-----------------------------------14----14-12h14---|
|------------------------------------------------------------|
|------------------------------------------------------------|
|--------------—---------------------------------------------|

|------------------------------------------------------------|
|------------------------------------------------------------|
|--14p12---12B--—--------------12B----12h14h16-12h14h16------|
|--------14----14-12h14-14p12------14------------------------|
|----------------------------14------------------------------|
|--------------—---------------------------------------------|

|------------------------------------------------------------|
|--------------------------------------15------15------15----|
|--12h14h16-12h14h16--/15-16-/15-16-/16---15h16---14-15------|
|------------------------------------------------------------|
|------------------------------------------------------------|
|--------------—---------------------------------------------|

|------------------------------7-----5-----4-----2-----0-----|
|-----15p14-14-----------------------------------------0-----|
|--/16---------14--13-13—--5/8---8/6---6/4---4/2---0h1-------|
|------------------------------------------------------------|
|------------------------------------------------------------|
|--------------------—---------------------------------------|

|---------------0--------------------------------------------|
|--0---2-2-0-2--0--------------------------------------------|
|--1—--2-2-1-2--1-Let----------------------------------------|
|--2---2-2-2-2--2-Ring---------------------------------------|
|--2-------2----2--------------------------------------------|
|------—-----------------------------------------------------|



End :


|--3p2p0---0--0-2-3-0---------0--------12-12--12--12---0-----|
|--------0---3--------2-3-----0--------12-12--12--12---0-----|
|-------—---------------------1-Let--------------------1-LR--|
|-----------------------------2-Ring-------------------2-----|
|-----------------------------2------------------------2-----|
|--------------—--------------0------------------------0-----|

|---------------------------0--------------------------------|
|---------------------------0--------------------------------|
|-------—--------1----------1--------------------------------|
|---0T2----------2-Let------2--------------------------------|
|----------------2-Ring-----2--------------------------------|
|---------3B-0---0-—--------0--------------------------------|












Guide to Tablature

b:1/4 bend
B:1/2 bend
FB:full bend
5FB5:bend and release
5FB5p0:bend, release and pull off
BR:bend released
h:hammer on
p:pull off
/:slide
~:vibrato
T:Trill (rapid alternation between 2 notes)
PM:Palm Muted
.:dotted note
X:note played with heavy damping

---------------------------------------------
“Race With The Devil” by Popa Chubby, as heard on the album “Vicious Country”
Transcription: Frederic Winne
choko_tof@yahoo.fr – http://www.brusselscityblues.fr.tc
Revenir en haut Aller en bas
Voir le profil de l'utilisateur http://www.brusselscityblues.fr.tc
Artney



Masculin Nombre de messages : 176
Age : 53
Localisation : S-0 France
Date d'inscription : 04/08/2006

MessageSujet: Re: Race With The Devil   Lun 27 Oct - 9:55

Merci Healer cheers
Revenir en haut Aller en bas
Voir le profil de l'utilisateur
Contenu sponsorisé




MessageSujet: Re: Race With The Devil   Aujourd'hui à 17:14

Revenir en haut Aller en bas
 
Race With The Devil
Voir le sujet précédent Voir le sujet suivant Revenir en haut 
Page 1 sur 1
 Sujets similaires
-
» GIRLSCHOOL
» GIRLSCHOOL
» Race de chien
» Radio Birdman, New Race, The New Christs
» Nothin' But The Devil (Jinx)

Permission de ce forum:Vous ne pouvez pas répondre aux sujets dans ce forum
Welcome to the Popa Guitar's Tabs Forum :: Popa Chubby's Tabs-
Sauter vers: