Welcome to the Popa Guitar's Tabs Forum

Submit or request a Popa Chubby's tab
 
Accès au siteAccès au site  AccueilAccueil  PortailPortail  FAQFAQ  RechercherRechercher  S'enregistrerS'enregistrer  MembresMembres  GroupesGroupes  Connexion  

Partagez | 
 

 I can't see the light of the day

Voir le sujet précédent Voir le sujet suivant Aller en bas 
AuteurMessage
bigtaz44



Nombre de messages : 2
Date d'inscription : 05/07/2007

MessageSujet: I can't see the light of the day   Jeu 5 Juil - 0:32

Salut à tous,
je suis à la recherche de la partition de I can't see the light of the Day.
Quelqu'un aurait-il trouver la tab?

merci beaucoup.
Revenir en haut Aller en bas
Voir le profil de l'utilisateur
Healer
Admin


Masculin Nombre de messages : 453
Age : 42
Localisation : Brussels City
Date d'inscription : 24/06/2006

MessageSujet: Re: I can't see the light of the day   Jeu 5 Juil - 12:19

bienvenue à toi,

Je l'ai retranscrite, il faut que je la mette "au propre".
Revenir en haut Aller en bas
Voir le profil de l'utilisateur http://www.brusselscityblues.fr.tc
bigtaz44



Nombre de messages : 2
Date d'inscription : 05/07/2007

MessageSujet: Re: I can't see the light of the day   Sam 7 Juil - 11:17

ok, encore merci au Healer...
Revenir en haut Aller en bas
Voir le profil de l'utilisateur
Healer
Admin


Masculin Nombre de messages : 453
Age : 42
Localisation : Brussels City
Date d'inscription : 24/06/2006

MessageSujet: Re: I can't see the light of the day   Ven 13 Juil - 11:48

Code:
Riff :


|--5-5--5------------------2LET---3-3-2--------------------|
|--5h7--5------------------3RING---------------------------|
|------—---5/4-2--------2--2-------------------------------|
|----------------4—-2h4----0-------------------------------|
|------------------—---------------------------------------|
|----------—-----------------------------------------------|

|--5-5--5--------------------------------------------------|
|--5h7--5------------------2LET---2h3-2h3-2----------------|
|------—---5/4-2--------2—-2RING---------------------------|
|----------------4—-2-4----2-------------------------------|
|------------------—-------0-------------------------------|
|----------—-----------------------------------------------|

|--5-5--5------------------------------0-------------------|
|--5h7--5--------------------------------------------------|
|------—---5/4-2--------2----------0h1---------------------|
|----------------4—-2h4—--(2)LET---------------------------|
|------------------—-------2-RING--------------------------|
|----------—---------------0---------------3b--0-----------|

|--5-5--5--------------------------------------------------|
|--5h7--5--------------------------------------------------|
|------—---5/4-2--------2—-6/7--7-/-6-/-4---2--------------|
|----------------4—-2h4----6/7--7-/-6-/-4---2--------------|
|------------------—-------4/5--5-/-4-/-2---0--------------|
|----------—-----------------------------------------------|


Solo :


|----------------------------------------------------------|
|-----------------------------5FB-LET-RING-5FB-5-2---------|
|----2----2---2-4B4-2---2-2-2----------------------4B4p2---|
|--4----4---4---------4------------------------------------|
|------------------—---------------------------------------|
|----------—-----------------------------------------------|

|-----------------2-------------------------------5--------|
|-------------------2-5-2----------------------------------|
|----2~~--—--2-4B---------4B-2-4/5\4p2---2---2-4B---4B-4---|
|--4-------4---------------------------4---4---------------|
|------------------—---------------------------------------|
|----------—-----------------------------------------------|

|------------------------------------0----------4~~-------|
|---------------------------------------------------------|
|--4-2~~-2h4p2-2~~-—-0h1--------------------/4------------|
|-------------4----------2--------------------------------|
|------------------—--------------------------------------|
|----------—-----------------3b~~~0-----------------------|

|--------5---7p5—9p5-7p5-10p5-9p5—-7B7-5------------------|
|------5---5----5---5---5----5---5-------5----------------|
|--2/6----—--------------------------------6--------------|
|--------------------------------------------7----------7-|
|------------------—----------------------------7-4---4---|
|----------—----------------------------------------5-----|
                                                |  PM  | 
|--R^-5—7b--7-5-7-5h7p5--5-5~~-7/--10FB------10FB10--8----|
|--A|-5----------------7----------------------------------|
|--K|-X---—-----------------------------------------------|
|--E|-X---------------------------------------------------|
|------------------—--------------------------------------|
|----------—----------------------------------------------|

|--------------------10-----------------12FB--12-10-9-----|
|--10~~/-----10---13b--13-12-10---10~~--------------------|
|------—--/11--11---------------11------------------------|
|---------------------------------------------------------|
|------------------—--------------------------------------|
|----------—----------------------------------------------|

|--------------/10-9--------------------------------------|
|--10----------------10-----------------------------------|
|-----9~~/--------------9~~-/-----------------------------|
|---------------------------------------------------------|
|------------------—--------------------------------------|
|----------—----------------------------------------------|

|------------12---------16/---------12-14B-14-12----------|
|---------------------------------12----------------------|
|-------4/13—-----13/16-------4/13--------------12h13/----|
|---------------------------------------------------------|
|------------------—--------------------------------------|
|----------—----------------------------------------------|

|------5-7B--7-5-7p5--5-----------------------------------|
|-----5-------------7----0-----10-10-----10-10-----10-10--|
|--2/6----—----------------9/11------9/11------9/11-------|
|---------------------------------------------------------|
|------------------—--------------------------------------|
|----------—----------------------------------------------|

|---------------------------------------------------------|
|------10-10-----10-----10-----10-----10-----10-10--------|
|--9/11----—-9/11---9/11---9/11---9/11---9/11------9/11---|
|---------------------------------------------------------|
|------------------—--------------------------------------|
|----------—----------------------------------------------|

|--------12-11-10----------------------------------5------|
|--10-10----------13FB-13~~-10h13p10---10~~/------5—8p5---|
|------—-----------------------------11------0-7B---------|
|---------------------------------------------------------|
|------------------—--------------------------------------|
|----------—----------------------------------------------|

|--------------------------------5-X-7B-5-7---5-----------|
|----5--------------------------5-----------7---5-5h7-5---|
|--7---7B75---7--5--^--5-----5-6--------------------------|
|-----------7---7---|5---7--------------------------------|
|------------------—|X------------------------------------|
|----------—--------|X------------------------------------|

|--------7B7-5-------------------------------------------|
|-------5-----5------------------------------------------|
|--5-5h6---—---5h6~~------------------2~~--------9--X----|
|---------------------------------2h4------------9—-X----|
|------------------—----------2/4---------0-9h11----X----|
|----------—---------4h5-4h5-----------------------------|
                    |  PM  |
|------------------------------------------------5-7B----|
|-------9---10-9--------------------------------5--------|
|-------9—------11-9-9h11/12/11p9-11-9~~/--0-4/6---------|
|--9h11--------------------------------------------------|
|------------------—-------------------------------------|
|----------—---------------------------------------------|

|--7-5---5~~/--0-17-0-0-16-0-0-15-0-0-14-0-0-13-0-0-12---|
|------7-------------------------------------------------|
|------—-------------------------------------------------|
|--------------------------------------------------------|
|------------------—-------------------------------------|
|----------—---------------------------------------------|

|--0-0-11-0-0-10-0-0-9-0-0-8-0-0-7-0-0-6-0-0-17-0-0-0-16-|
|--------------------------------------------------------|
|------—-------------------------------------------------|
|--------------------------------------------------------|
|------------------—-------------------------------------|
|----------—---------------------------------------------|

|--0-0-0-15-0-0-0-14-0-0-0-13-0-0-0-12-0-0-0-11-0-0-0-10-|
|--------------------------------------------------------|
|------—-------------------------------------------------|
|--------------------------------------------------------|
|------------------—-------------------------------------|
|----------—---------------------------------------------|

|--0-0-0-9-0-0-0-8-0-0-0-7-0-0-0-6-0-0-0-5-0-0-0-4/5-5-4-|
|--------------------------------------------------------|
|------—-------------------------------------------------|
|--------------------------------------------------------|
|------------------—-------------------------------------|
|----------—---------------------------------------------|

|--4/5-5-7-7B-7-5-7p5---5/-----5-7FB7-7------------------|
|---------------------7-------5---------5~~/-0-----------|
|------—-------------------2/6---------------0-----------|
|--------------------------------------------0-----7-----|
|------------------—----------------------------7h9------|
|----------—---------------------------------------------|

|--------------------------------------------------------|
|----------------------9----7-----5-LET------------------|
|------—---------------------------RING------------------|
|--9B9-7---7~~/-5—-7/9---/7---4/5-------------2----------|
|--------9----------—------------------------------------|
|----------—-----------------------------0-3b------------|

|--------------------------------------------------------|
|---------------------------2LET—-(7)-(6)-(4)---(2)------|
|------—-----X—-5/4p2-4--2—-2RING--7---6---4-----2-------|
|------2h4p2-X--------------2------7---6---4-----2-------|
|--2h4-------X---------—----0------5---4---2-----0-------|
|----------—---------------------------------------------|


End :


|----------------------------5-----5--------------------|
|--6/7---7-/-6-/-4-/-2------5-----5-5---14—-12/--5/(3)--|
|--6/7---7-/—6-/-4-/-2-----6---6-7----------------------|
|--6/7---7-/-6-/-4-/-2----7-----------------------------|
|--4/5---5-/-4-/-2---------—----------------------------|
|----------—--------------------------------------------|

|-------------------------------------------------------|
|--3/(2)--2-3-2h3p2--------------------^2---------------|
|------—2-----------2--^-2-------------|2---------------|
|----------------------|-2-------------|2---------------|
|------------------—---|-----0-LET-----|0---------------|
|----------—------------------RING----------------------|










Guide to Tablature

b:1/4 bend
B:1/2 bend
FB:full bend
h:hammer on
p:pull off
/:slide 
~:vibrato
PM:Palm Muted
.:dotted note
X:note played with heavy damping

---------------------------------------------
Transcription: Frédéric Winne


Dernière édition par le Sam 14 Juil - 19:03, édité 3 fois
Revenir en haut Aller en bas
Voir le profil de l'utilisateur http://www.brusselscityblues.fr.tc
maikol



Nombre de messages : 1
Date d'inscription : 09/07/2007

MessageSujet: Re: I can't see the light of the day   Ven 13 Juil - 20:26

Merci !!! Very Happy
Revenir en haut Aller en bas
Voir le profil de l'utilisateur
Healer
Admin


Masculin Nombre de messages : 453
Age : 42
Localisation : Brussels City
Date d'inscription : 24/06/2006

MessageSujet: Re: I can't see the light of the day   Ven 13 Juil - 22:55

Wink
Revenir en haut Aller en bas
Voir le profil de l'utilisateur http://www.brusselscityblues.fr.tc
picvert



Nombre de messages : 1
Date d'inscription : 24/09/2007

MessageSujet: Re: I can't see the light of the day   Mar 25 Sep - 14:16

Bonjour je suis à la recherche des paroles du Blues de Popa Chubby;
I can't see the light of day.....

Merci d'avance
Revenir en haut Aller en bas
Voir le profil de l'utilisateur
Healer
Admin


Masculin Nombre de messages : 453
Age : 42
Localisation : Brussels City
Date d'inscription : 24/06/2006

MessageSujet: Re: I can't see the light of the day   Mar 25 Sep - 22:09

bienvenue à toi

I Can't See The Light Of Day

I built my house on shallow sand
Now I Just don't understand
Why all is blown away
I can't see the light of day

I tried so hard to make you smile
But you just stuck me in a file
Marked no good man just throw away
And I can't see the light of day

Oh that darkness sure is cold
When you shut out and feeling old
Old and sick and broke and grey
And I can't see the light of day

I don't mean you no offense
But that ain't no way to treat your friends
I wouldn't treat my dog that way
And I can't see the liht of day
Revenir en haut Aller en bas
Voir le profil de l'utilisateur http://www.brusselscityblues.fr.tc
Contenu sponsorisé




MessageSujet: Re: I can't see the light of the day   Aujourd'hui à 17:13

Revenir en haut Aller en bas
 
I can't see the light of the day
Voir le sujet précédent Voir le sujet suivant Revenir en haut 
Page 1 sur 1
 Sujets similaires
-
» Guitares Light and Blues
» Electric Light Orchestra
» SONO LIGHT (Alsace) Présentation:
» Interprétation Light Me Up
» Carnival Of Light

Permission de ce forum:Vous ne pouvez pas répondre aux sujets dans ce forum
Welcome to the Popa Guitar's Tabs Forum :: Popa Chubby's Tabs-
Sauter vers: