Welcome to the Popa Guitar's Tabs Forum

Submit or request a Popa Chubby's tab
 
Accès au siteAccès au site  AccueilAccueil  PortailPortail  FAQFAQ  RechercherRechercher  S'enregistrerS'enregistrer  MembresMembres  GroupesGroupes  Connexion  

Partagez | 
 

 Woman In My Bed Dub

Voir le sujet précédent Voir le sujet suivant Aller en bas 
AuteurMessage
Healer
Admin


Masculin Nombre de messages : 453
Age : 42
Localisation : Brussels City
Date d'inscription : 24/06/2006

MessageSujet: Woman In My Bed Dub   Mar 12 Fév - 1:52

nouvelle tab sur le site...

bon amusement! Wink
Revenir en haut Aller en bas
Voir le profil de l'utilisateur http://www.brusselscityblues.fr.tc
Healer
Admin


Masculin Nombre de messages : 453
Age : 42
Localisation : Brussels City
Date d'inscription : 24/06/2006

MessageSujet: Re: Woman In My Bed Dub   Mar 12 Fév - 11:38

Code:
Woman In My Bed Dub
(Popa Chubby – « Deliveries After Dark »)
 

 

Riff :


|------5-------5-------3-------3----------------------------|
|---X--5----X--5----X--3----X--3----------------------------|
|---X--5-—--X--5----X--4----X--4----------------------------|
|---X-(7)---X—(7)---X--5----X--5----------------------------|
|---X-------X-------X-------X-------------------------------|
|-----------------------------------------------------------|


Main Chords :


Am / G


|--17-17/--(8)---8-----------------------------------------|
|--17-17/---8h10-------------------------------------------|
|------—-----------9/7-----5-------5---------5-7B7-5---5---|
|----------------------7-X------5h7-5h7~~--7--------(7)----|
|----------------------------------------------------------|
|----------------------------------------------------------|

|------5---------5-------------8-10/12-11-10-8-------------|
|---------------(5)-8~~---8/10-----------------10-10~~-10/8|
|--7B~~----—7B---------------------------------------------|
|----------------------------------------------------------|
|----------------------------------------------------------|
|----------------------------------------------------------|

|-------------------------------------------12-/-10--8-/-7-|
|-------------------------------------------13-/-12—10-/-8-|
|--9/7p5----5—--5-7B-5~~--------------5--------------------|
|-------------7-----------------5-5h7---7------------------|
|----------------------------/7----------------------------|
|----------------------------------------------------------|

|--5-LR—-3/5--5-LR-----------------------------------------|
|--5-----3/5--5-------------------X-X----------------------|
|------—-----(5)----------5-------X-X----------------------|
|-----------------------5---7-5---X-X--7-7-5---5-----------|
|--------------------/7----------------------7---7---------|
|----------------------------------------------------------|

|---------------12-/-10--8-/-7--5-LR—-3/5--5-LR------------|
|---------------13-/-12—-10/-8--5-----3/5--5---------------|
|------—-5--------------------------------(5)----7B7p5-----|
|--5---7---7/----------------------------------------------|
|----7-----------------------------------------------------|
|----------------------------------------------------------|

|----------------------------------------------------------|
|----------------------------------------------------------|
|--7B7p5-7B7p5-7B7p5-7B7p5-—-5---10--9--7------------------|
|--------------------------7----------------10--9--7-LR----|
|---------------------------------8--7--5------------------|
|--------------------------------------------8--7--5-------|

|----------------------------------------------------------|
|--8---Let-------------------------------------------------|
|--7----—-Ring---------------------------------------------|
|--6-------------------------------------------------------|
|--7-------------------------------------------------------|
|----------------------------------------------------------|
E7#9


Solo 1 :


|--12-/-10--8-/-7--5--3--5---5-LR----------17/-------------|
|--13-/-12—-10/-8--5--3--5---5----------13-----------------|
|------—---------------------5-------(14)------------------|
|---------------------------(7)----------------------------|
|----------------------------------------------------------|
|----------------------------------------------------------|

|---------------------------8-5~~-10/12----11-10-8---------|
|--------------------------------------------------10~~----|
|------—-----------------/5--------------------------------|
|--14-13-12/10---------------------------------------------|
|--------------12-10-12------------------------------------|
|----------------------------------------------------------|

|--12-/-10--8-/-7--5--3--5---5-LR--------------------------|
|--13-/-12—-10/-8--5--3--5---5-----------------------------|
|------—---------------------5--------------------5---5----|
|---------------------------(7)--------5--5-7-5-7---7------|
|------------------------------------/7-7------------------|
|----------------------------------------------------------|

|------------------5-----------8-/-12-11-10-8--------------|
|--------------------8~~--10~~----------------10---8-10~~--|
|--7B7p5-7--5-5—7B------9------------------------9---------|
|-------7--------------------------------------------------|
|----------------------------------------------------------|
|----------------------------------------------------------|

|--12-/-10--8-/-7--5--3--5---5-LR--------------------------|
|--13-/-12—-10/-8--5--3--5---5---------8-10-10----8-10-----|
|------—---------------------5------/9---------/9----------|
|---------------------------(7)----------------------------|
|----------------------------------------------------------|
|----------------------------------------------------------|

|----------------------------------------------------------|
|--10----8-10-10----8-10-10--/10--8-8/6-LR-----------------|
|-----/9-—-------/9----------------------------------------|
|--------------------------------------------10-9—-7LR-----|
|----------------------------------------------------------|
|----------------------------------------------------------|

|--10FB----------------------------------------------------|
|----------------------------------------------------------|
|------—---------------------------------------------------|
|----------------------------------------------------------|
|----------------------------------------------------------|
|----------------------------------------------------------|


Bridge : G / Am


|-------7-Let--------------12-Let------------------------|
|------------Ring----------------Ring--------------------|
|------—-------------------------------------------------|
|--/7-----------------/14--------------------------------|
|--------------------------------------------------------|
|--------------------------------------------------------|


Solo 2 :


|--17-17/------5------------------------5-5~~-8--/12-/12---|
|--17-17/------5h8--5--------------------------------------|
|------—--------------7-5-7-5-7p5---5----------------------|
|---------------------------------7---7--------------------|
|----------------------------------------------------------|
|----------------------------------------------------------|

|--5-------5--------------------------5-5-5-5---5-5-------5|
|--5-----5---8-7-------------------------------------------|
|-----7B-—-------7-5---------5/4--------5-7-7/8-5-7-8/7p5--|
|--------------------7-5-7-7----------7--------------------|
|----------------------------------------------------------|
|----------------------------------------------------------|
                |    PM    |

|-----5--------------------------------------------/12~~---|
|--------------------------5------7b--5-----8-8-10---------|
|--7h8---7h8p5-7h8p5—7h8p5---8p7--7b--5--/9----------------|
|----------------------------------------------------------|
|----------------------------------------------------------|
|----------------------------------------------------------|

|--11-10-11/10p8-10-8---------------5-5--------------------|
|----------------------------------------------------------|
|------—--------------9/7-5-7p5--5------------------5------|
|-------------------------------7-7----------5--7-5---7----|
|-----------------------------------------/7---------------|
|----------------------------------------------------------|

|-----------5--------------------------------8---10/12LR---|
|-------------5-8p5---5-------------8-10-10~~-10-----------|
|--5---5-7B~—-------7---7B7p5---7/9------------------------|
|----7------------------------7----------------------------|
|----------------------------------------------------------|
|----------------------------------------------------------|

|--11-10-8------------------8------------------------------|
|----------10--------------8---------------------5/6~~-----|
|------—------X-9-8-7-5-5-7---7B7-5—7p5---5----------------|
|-------------X--------7----------------7---7-7------------|
|-------------X--------------------------------------------|
|----------------------------------------------------------|
              |  PM  |

|----------------------------------------------------------|
|--/5----------------5-7B-7-5---------5---X--X--8--8-------|
|------7/8/7p5—7-5------------7-7-5-7-----X--X--7--7-------|
|------------------7----------------------X-—X--6--6-------|
|----------------------------------------------(7)(7)------|
|----------------------------------------------------------|

|--R^-12-LR------------------------------------------------|
|--A|-13----13/12-12-12-12--10-10-10--5-5-5--5-5-5-5-------|
|--K|-14--—-14/12-12-12-12---9--9--9--7-7-7--5-5-5-5-------|
|--E|------------------------------------------------------|
|----------------------------------------------------------|
|----------------------------------------------------------|
                                            |  PM  |

|-----------------5--------------8-------8----10/12--------|
|------------------------------------10~~------------------|
|------—-5-7-5-7B---7B-7-5-7-7/9---9-----------------------|
|--7-7-7---------------------------------------------------|
|----------------------------------------------------------|
|----------------------------------------------------------|
  |    PM    |

|--R^-12-11-10-11p10-11p10/8-----------------------5-------|
|--A|------------------------10----------------------8-5---|
|--K|----—----------------------9-8-7-5----5---7B~~--------|
|--E|-----------------------------------7-7----------------|
|----------------------------------------------------------|
|----------------------------------------------------------|
                              |    PM    |

|--------------------------------8-----8-10/12--10--8------|
|----5-----------------------------10~~--------------------|
|--7—--7/8/7p5--—7-5-------5-7/9---------------------------|
|--------------7-----7-5/7---------------------------------|
|----------------------------------------------------------|
|----------------------------------------------------------|

|-----------------5----------------------------------------|
|--10-10~~8------5--5-8-5-------------------10-10~~-8------|
|------—-------7B---------8-7-5-7p5---5-7/9-----------9/7--|
|-----------------------------------7----------------------|
|----------------------------------------------------------|
|----------------------------------------------------------|
                        | PM | 

|------------------5/------5-------------------------------|
|--------------------------5-------------------8FB—-8~~----|
|--5h7p5---5-—---------------8-7-5------5-5----------------|
|--------7-------------------------7--5-----7--------------|
|----------------------------------------------------------|
|----------------------------------------------------------|
                            |      PM      |
|-----5----------------------------------------------------|
|-------8-5---5----------------------------8-10~~----------|
|--7B----—--7---8/7p5---7-5----------5-7/9-----------------|
|---------------------7-----7-5---5-7----------------------|
|-------------------------------7--------------------------|
|----------------------------------------------------------|

|--R^-10FB-11-10-/-8---------------------10FB10-8----------|
|--A|---------------10----------------------------10-8-10--|
|--K|----—------------9-8-7-5-----5-5----------------------|
|--E|-------------------------7-7--------------------------|
|----------------------------------------------------------|
|----------------------------------------------------------|
                    |      PM      | 
|--8-------------------------------------------------------|
|----10~~/--8-Let------------------------------------------|
|------—----7-Ring-----------------------------------------|
|-----------6----------------------------------------------|
|-----------7----------------------------------------------|
|----------------------------------------------------------|

|--12-/-10--8-/-7--5--3--5---5----------5------5----5------|
|--13-/-12—-10/-8--5--3--5---5--------------8B---8B---8B---|
|------—---------------------5----5-7/9--------------------|
|---------------------------(7)-7--------------------------|
|----------------------------------------------------------|
|----------------------------------------------------------|

|------------------------------8-10/12--11-10-8------------|
|--8-5--------------------8-10------------------10p8---8---|
|------—8-7-5---------7/9----------------------------9-----|
|----------------------------------------------------------|
|----------------------------------------------------------|
|----------------------------------------------------------|
      | PM |

|---------12-/-10--8-/-7--5--3--5---5--5-5/----------------|
|--10~~---13-/-12—-10/-8--5--3--5---5--5-5/----------------|
|------—----------------------------5----------------------|
|----------------------------------(7)------------5-5------|
|-----------------------------------------------7-----7----|
|----------------------------------------------------------|
                                                | PM  | 

|-------------------8-10/12LR------------------------------|
|-----------10-10~~-----------10/--------------------------|
|------—--9------------------------------------------------|
|----------------------------------------------------------|
|----------------------------------------------------------|
|----------------------------------------------------------|

|--12-/-10--8-/-7--5--3--5---5--^13FB---5------------------|
|--13-/-12—-10/-8--5--3--5---5--|---------8-5---5-5--------|
|------—---------------------5--|-------------7-----7-5----|
|---------------------------(7)----------------------------|
|----------------------------------------------------------|
|----------------------------------------------------------|

|--------------5~~------------8/---------------------------|
|------------------------10~~------------------------------|
|--7-8/7--5-—5--------/9-----------------------------------|
|-------7---7----------------------------------------------|
|----------------------------------------------------------|
|----------------------------------------------------------|

|--12-/-10--8-/-7--5--3--5---5--5-5/-----8-8/--------------|
|--13-/-12—-10/-8--5--3--5---5--5-5/-----5-5/-----5-5-5----|
|------—---------------------5--------------------5h7-5----|
|---------------------------(7)----------------------------|
|----------------------------------------------------------|
|----------------------------------------------------------|

|-----5----------------------12-10-8--7-5-3-5---5-FADE-----|
|----------------------------13-12-10-8-5-3-5---5-----OUT--|
|--7B---7B7-5—----------------------------------5----------|
|-------------7----7-7-------------------------------------|
|----------------------------------------------------------|
|----------------------------------------------------------|

 

Guide to tablature

b : 1/4 bend
B : 1/2 bend
FB : full bend
17FB17 : full bend and release
h : hammer on
p : pull off
/ : slide
~ : vibrato
PM : Palm Muted
. : dotted note
LR : Let Ring
Tremolo : indicates fast up and down strumming
Revenir en haut Aller en bas
Voir le profil de l'utilisateur http://www.brusselscityblues.fr.tc
 
Woman In My Bed Dub
Voir le sujet précédent Voir le sujet suivant Revenir en haut 
Page 1 sur 1
 Sujets similaires
-
» No woman no cry live
» I got a woman Olympia 1962
» #117 Black Magic Woman - Fleetwood Mac (18 avril 2011)
» The Doors : L.A. Woman (1971)
» Scent of a woman (k-drama)

Permission de ce forum:Vous ne pouvez pas répondre aux sujets dans ce forum
Welcome to the Popa Guitar's Tabs Forum :: Popa Chubby's Tabs-
Sauter vers: